ISO-10303-21;
HEADER;
/* Generated by software containing ST-Developer
 * from STEP Tools, Inc. (www.steptools.com) 
 */

FILE_DESCRIPTION(
/* description */ (''),
/* implementation_level */ '2;1');

FILE_NAME(
/* name */ '[S1933] Round Pin.step',
/* time_stamp */ '2024-09-18T11:06:36-04:00',
/* author */ (''),
/* organization */ (''),
/* preprocessor_version */ 'ST-DEVELOPER v20',
/* originating_system */ 'Autodesk Translation Framework v13.14.0.145',

/* authorisation */ '');

FILE_SCHEMA (('AUTOMOTIVE_DESIGN { 1 0 10303 214 3 1 1 }'));
ENDSEC;

DATA;
#10=MECHANICAL_DESIGN_GEOMETRIC_PRESENTATION_REPRESENTATION('',(#13),#423);
#11=SHAPE_REPRESENTATION_RELATIONSHIP('SRR','None',#433,#12);
#12=ADVANCED_BREP_SHAPE_REPRESENTATION('',(#14),#422);
#13=STYLED_ITEM('',(#443),#14);
#14=MANIFOLD_SOLID_BREP('Body1 (2) (1)',#225);
#15=CONICAL_SURFACE('',#260,0.235,0.785398163397448);
#16=CONICAL_SURFACE('',#263,0.2258,0.349065850398872);
#17=CONICAL_SURFACE('',#272,0.217928932188134,0.785398163397459);
#18=TOROIDAL_SURFACE('',#251,0.217,0.03);
#19=TOROIDAL_SURFACE('',#258,0.217,0.03);
#20=LINE('',#366,#28);
#21=LINE('',#371,#29);
#22=LINE('',#387,#30);
#23=LINE('',#396,#31);
#24=LINE('',#402,#32);
#25=LINE('',#406,#33);
#26=LINE('',#414,#34);
#27=LINE('',#418,#35);
#28=VECTOR('',#287,0.25);
#29=VECTOR('',#292,0.25);
#30=VECTOR('',#313,0.187);
#31=VECTOR('',#326,0.235);
#32=VECTOR('',#333,0.2258);
#33=VECTOR('',#338,0.25);
#34=VECTOR('',#349,0.2035);
#35=VECTOR('',#354,0.224999999999999);
#36=CYLINDRICAL_SURFACE('',#242,0.25);
#37=CYLINDRICAL_SURFACE('',#244,0.25);
#38=CYLINDRICAL_SURFACE('',#255,0.187);
#39=CYLINDRICAL_SURFACE('',#266,0.2473);
#40=CYLINDRICAL_SURFACE('',#271,0.2035);
#41=FACE_BOUND('',#62,.T.);
#42=FACE_BOUND('',#66,.T.);
#43=FACE_BOUND('',#68,.T.);
#44=FACE_BOUND('',#77,.T.);
#45=FACE_OUTER_BOUND('',#61,.T.);
#46=FACE_OUTER_BOUND('',#63,.T.);
#47=FACE_OUTER_BOUND('',#64,.T.);
#48=FACE_OUTER_BOUND('',#65,.T.);
#49=FACE_OUTER_BOUND('',#67,.T.);
#50=FACE_OUTER_BOUND('',#69,.T.);
#51=FACE_OUTER_BOUND('',#70,.T.);
#52=FACE_OUTER_BOUND('',#71,.T.);
#53=FACE_OUTER_BOUND('',#72,.T.);
#54=FACE_OUTER_BOUND('',#73,.T.);
#55=FACE_OUTER_BOUND('',#74,.T.);
#56=FACE_OUTER_BOUND('',#75,.T.);
#57=FACE_OUTER_BOUND('',#76,.T.);
#58=FACE_OUTER_BOUND('',#78,.T.);
#59=FACE_OUTER_BOUND('',#79,.T.);
#60=FACE_OUTER_BOUND('',#80,.T.);
#61=EDGE_LOOP('',(#147));
#62=EDGE_LOOP('',(#148));
#63=EDGE_LOOP('',(#149,#150,#151,#152));
#64=EDGE_LOOP('',(#153,#154,#155,#156));
#65=EDGE_LOOP('',(#157));
#66=EDGE_LOOP('',(#158));
#67=EDGE_LOOP('',(#159));
#68=EDGE_LOOP('',(#160));
#69=EDGE_LOOP('',(#161,#162,#163,#164,#165));
#70=EDGE_LOOP('',(#166,#167,#168,#169,#170,#171));
#71=EDGE_LOOP('',(#172,#173,#174,#175,#176));
#72=EDGE_LOOP('',(#177,#178,#179,#180));
#73=EDGE_LOOP('',(#181));
#74=EDGE_LOOP('',(#182,#183,#184,#185));
#75=EDGE_LOOP('',(#186,#187,#188,#189,#190));
#76=EDGE_LOOP('',(#191));
#77=EDGE_LOOP('',(#192));
#78=EDGE_LOOP('',(#193,#194,#195,#196));
#79=EDGE_LOOP('',(#197,#198,#199,#200,#201));
#80=EDGE_LOOP('',(#202));
#81=CIRCLE('',#240,0.25);
#82=CIRCLE('',#241,0.2035);
#83=CIRCLE('',#243,0.25);
#84=CIRCLE('',#245,0.25);
#85=CIRCLE('',#246,0.25);
#86=CIRCLE('',#248,0.217);
#87=CIRCLE('',#250,0.217);
#88=CIRCLE('',#252,0.03);
#89=CIRCLE('',#253,0.187);
#90=CIRCLE('',#254,0.187);
#91=CIRCLE('',#256,0.187);
#92=CIRCLE('',#257,0.187);
#93=CIRCLE('',#259,0.03);
#94=CIRCLE('',#261,0.22);
#95=CIRCLE('',#264,0.2043);
#96=CIRCLE('',#265,0.2473);
#97=CIRCLE('',#267,0.2473);
#98=CIRCLE('',#268,0.2473);
#99=CIRCLE('',#270,0.2035);
#100=CIRCLE('',#273,0.185857864376267);
#101=VERTEX_POINT('',#359);
#102=VERTEX_POINT('',#361);
#103=VERTEX_POINT('',#364);
#104=VERTEX_POINT('',#368);
#105=VERTEX_POINT('',#370);
#106=VERTEX_POINT('',#374);
#107=VERTEX_POINT('',#377);
#108=VERTEX_POINT('',#380);
#109=VERTEX_POINT('',#382);
#110=VERTEX_POINT('',#386);
#111=VERTEX_POINT('',#388);
#112=VERTEX_POINT('',#394);
#113=VERTEX_POINT('',#399);
#114=VERTEX_POINT('',#401);
#115=VERTEX_POINT('',#405);
#116=VERTEX_POINT('',#407);
#117=VERTEX_POINT('',#411);
#118=VERTEX_POINT('',#416);
#119=EDGE_CURVE('',#101,#101,#81,.T.);
#120=EDGE_CURVE('',#102,#102,#82,.T.);
#121=EDGE_CURVE('',#103,#103,#83,.T.);
#122=EDGE_CURVE('',#103,#101,#20,.T.);
#123=EDGE_CURVE('',#104,#104,#84,.T.);
#124=EDGE_CURVE('',#104,#105,#21,.T.);
#125=EDGE_CURVE('',#105,#105,#85,.T.);
#126=EDGE_CURVE('',#106,#106,#86,.T.);
#127=EDGE_CURVE('',#107,#107,#87,.T.);
#128=EDGE_CURVE('',#107,#108,#88,.T.);
#129=EDGE_CURVE('',#108,#109,#89,.T.);
#130=EDGE_CURVE('',#109,#108,#90,.T.);
#131=EDGE_CURVE('',#109,#110,#22,.T.);
#132=EDGE_CURVE('',#111,#110,#91,.T.);
#133=EDGE_CURVE('',#110,#111,#92,.T.);
#134=EDGE_CURVE('',#111,#106,#93,.T.);
#135=EDGE_CURVE('',#112,#112,#94,.T.);
#136=EDGE_CURVE('',#112,#104,#23,.T.);
#137=EDGE_CURVE('',#113,#113,#95,.T.);
#138=EDGE_CURVE('',#113,#114,#24,.T.);
#139=EDGE_CURVE('',#114,#114,#96,.T.);
#140=EDGE_CURVE('',#114,#115,#25,.T.);
#141=EDGE_CURVE('',#116,#115,#97,.T.);
#142=EDGE_CURVE('',#115,#116,#98,.T.);
#143=EDGE_CURVE('',#117,#117,#99,.T.);
#144=EDGE_CURVE('',#102,#117,#26,.T.);
#145=EDGE_CURVE('',#118,#118,#100,.T.);
#146=EDGE_CURVE('',#118,#116,#27,.T.);
#147=ORIENTED_EDGE('',*,*,#119,.F.);
#148=ORIENTED_EDGE('',*,*,#120,.F.);
#149=ORIENTED_EDGE('',*,*,#121,.F.);
#150=ORIENTED_EDGE('',*,*,#122,.T.);
#151=ORIENTED_EDGE('',*,*,#119,.T.);
#152=ORIENTED_EDGE('',*,*,#122,.F.);
#153=ORIENTED_EDGE('',*,*,#123,.F.);
#154=ORIENTED_EDGE('',*,*,#124,.T.);
#155=ORIENTED_EDGE('',*,*,#125,.F.);
#156=ORIENTED_EDGE('',*,*,#124,.F.);
#157=ORIENTED_EDGE('',*,*,#125,.T.);
#158=ORIENTED_EDGE('',*,*,#126,.F.);
#159=ORIENTED_EDGE('',*,*,#121,.T.);
#160=ORIENTED_EDGE('',*,*,#127,.F.);
#161=ORIENTED_EDGE('',*,*,#127,.T.);
#162=ORIENTED_EDGE('',*,*,#128,.T.);
#163=ORIENTED_EDGE('',*,*,#129,.T.);
#164=ORIENTED_EDGE('',*,*,#130,.T.);
#165=ORIENTED_EDGE('',*,*,#128,.F.);
#166=ORIENTED_EDGE('',*,*,#130,.F.);
#167=ORIENTED_EDGE('',*,*,#131,.T.);
#168=ORIENTED_EDGE('',*,*,#132,.F.);
#169=ORIENTED_EDGE('',*,*,#133,.F.);
#170=ORIENTED_EDGE('',*,*,#131,.F.);
#171=ORIENTED_EDGE('',*,*,#129,.F.);
#172=ORIENTED_EDGE('',*,*,#132,.T.);
#173=ORIENTED_EDGE('',*,*,#133,.T.);
#174=ORIENTED_EDGE('',*,*,#134,.T.);
#175=ORIENTED_EDGE('',*,*,#126,.T.);
#176=ORIENTED_EDGE('',*,*,#134,.F.);
#177=ORIENTED_EDGE('',*,*,#135,.T.);
#178=ORIENTED_EDGE('',*,*,#136,.T.);
#179=ORIENTED_EDGE('',*,*,#123,.T.);
#180=ORIENTED_EDGE('',*,*,#136,.F.);
#181=ORIENTED_EDGE('',*,*,#135,.F.);
#182=ORIENTED_EDGE('',*,*,#137,.T.);
#183=ORIENTED_EDGE('',*,*,#138,.T.);
#184=ORIENTED_EDGE('',*,*,#139,.T.);
#185=ORIENTED_EDGE('',*,*,#138,.F.);
#186=ORIENTED_EDGE('',*,*,#139,.F.);
#187=ORIENTED_EDGE('',*,*,#140,.T.);
#188=ORIENTED_EDGE('',*,*,#141,.F.);
#189=ORIENTED_EDGE('',*,*,#142,.F.);
#190=ORIENTED_EDGE('',*,*,#140,.F.);
#191=ORIENTED_EDGE('',*,*,#137,.F.);
#192=ORIENTED_EDGE('',*,*,#143,.F.);
#193=ORIENTED_EDGE('',*,*,#120,.T.);
#194=ORIENTED_EDGE('',*,*,#144,.T.);
#195=ORIENTED_EDGE('',*,*,#143,.T.);
#196=ORIENTED_EDGE('',*,*,#144,.F.);
#197=ORIENTED_EDGE('',*,*,#145,.T.);
#198=ORIENTED_EDGE('',*,*,#146,.T.);
#199=ORIENTED_EDGE('',*,*,#141,.T.);
#200=ORIENTED_EDGE('',*,*,#142,.T.);
#201=ORIENTED_EDGE('',*,*,#146,.F.);
#202=ORIENTED_EDGE('',*,*,#145,.F.);
#203=PLANE('',#239);
#204=PLANE('',#247);
#205=PLANE('',#249);
#206=PLANE('',#262);
#207=PLANE('',#269);
#208=PLANE('',#274);
#209=ADVANCED_FACE('',(#45,#41),#203,.F.);
#210=ADVANCED_FACE('',(#46),#36,.T.);
#211=ADVANCED_FACE('',(#47),#37,.T.);
#212=ADVANCED_FACE('',(#48,#42),#204,.F.);
#213=ADVANCED_FACE('',(#49,#43),#205,.F.);
#214=ADVANCED_FACE('',(#50),#18,.F.);
#215=ADVANCED_FACE('',(#51),#38,.T.);
#216=ADVANCED_FACE('',(#52),#19,.F.);
#217=ADVANCED_FACE('',(#53),#15,.T.);
#218=ADVANCED_FACE('',(#54),#206,.T.);
#219=ADVANCED_FACE('',(#55),#16,.T.);
#220=ADVANCED_FACE('',(#56),#39,.T.);
#221=ADVANCED_FACE('',(#57,#44),#207,.T.);
#222=ADVANCED_FACE('',(#58),#40,.T.);
#223=ADVANCED_FACE('',(#59),#17,.T.);
#224=ADVANCED_FACE('',(#60),#208,.T.);
#225=CLOSED_SHELL('',(#209,#210,#211,#212,#213,#214,#215,#216,#217,#218,
#219,#220,#221,#222,#223,#224));
#226=DERIVED_UNIT_ELEMENT(#228,1.);
#227=DERIVED_UNIT_ELEMENT(#427,-3.);
#228=(
MASS_UNIT()
NAMED_UNIT(*)
SI_UNIT(.KILO.,.GRAM.)
);
#229=DERIVED_UNIT((#226,#227));
#230=MEASURE_REPRESENTATION_ITEM('density measure',
POSITIVE_RATIO_MEASURE(7850.),#229);
#231=PROPERTY_DEFINITION_REPRESENTATION(#236,#233);
#232=PROPERTY_DEFINITION_REPRESENTATION(#237,#234);
#233=REPRESENTATION('material name',(#235),#422);
#234=REPRESENTATION('density',(#230),#422);
#235=DESCRIPTIVE_REPRESENTATION_ITEM('Steel','Steel');
#236=PROPERTY_DEFINITION('material property','material name',#435);
#237=PROPERTY_DEFINITION('material property','density of part',#435);
#238=AXIS2_PLACEMENT_3D('',#357,#275,#276);
#239=AXIS2_PLACEMENT_3D('',#358,#277,#278);
#240=AXIS2_PLACEMENT_3D('',#360,#279,#280);
#241=AXIS2_PLACEMENT_3D('',#362,#281,#282);
#242=AXIS2_PLACEMENT_3D('',#363,#283,#284);
#243=AXIS2_PLACEMENT_3D('',#365,#285,#286);
#244=AXIS2_PLACEMENT_3D('',#367,#288,#289);
#245=AXIS2_PLACEMENT_3D('',#369,#290,#291);
#246=AXIS2_PLACEMENT_3D('',#372,#293,#294);
#247=AXIS2_PLACEMENT_3D('',#373,#295,#296);
#248=AXIS2_PLACEMENT_3D('',#375,#297,#298);
#249=AXIS2_PLACEMENT_3D('',#376,#299,#300);
#250=AXIS2_PLACEMENT_3D('',#378,#301,#302);
#251=AXIS2_PLACEMENT_3D('',#379,#303,#304);
#252=AXIS2_PLACEMENT_3D('',#381,#305,#306);
#253=AXIS2_PLACEMENT_3D('',#383,#307,#308);
#254=AXIS2_PLACEMENT_3D('',#384,#309,#310);
#255=AXIS2_PLACEMENT_3D('',#385,#311,#312);
#256=AXIS2_PLACEMENT_3D('',#389,#314,#315);
#257=AXIS2_PLACEMENT_3D('',#390,#316,#317);
#258=AXIS2_PLACEMENT_3D('',#391,#318,#319);
#259=AXIS2_PLACEMENT_3D('',#392,#320,#321);
#260=AXIS2_PLACEMENT_3D('',#393,#322,#323);
#261=AXIS2_PLACEMENT_3D('',#395,#324,#325);
#262=AXIS2_PLACEMENT_3D('',#397,#327,#328);
#263=AXIS2_PLACEMENT_3D('',#398,#329,#330);
#264=AXIS2_PLACEMENT_3D('',#400,#331,#332);
#265=AXIS2_PLACEMENT_3D('',#403,#334,#335);
#266=AXIS2_PLACEMENT_3D('',#404,#336,#337);
#267=AXIS2_PLACEMENT_3D('',#408,#339,#340);
#268=AXIS2_PLACEMENT_3D('',#409,#341,#342);
#269=AXIS2_PLACEMENT_3D('',#410,#343,#344);
#270=AXIS2_PLACEMENT_3D('',#412,#345,#346);
#271=AXIS2_PLACEMENT_3D('',#413,#347,#348);
#272=AXIS2_PLACEMENT_3D('',#415,#350,#351);
#273=AXIS2_PLACEMENT_3D('',#417,#352,#353);
#274=AXIS2_PLACEMENT_3D('',#419,#355,#356);
#275=DIRECTION('axis',(0.,0.,1.));
#276=DIRECTION('refdir',(1.,0.,0.));
#277=DIRECTION('center_axis',(-1.2882679901679E-15,2.22320855043373E-16,
1.));
#278=DIRECTION('ref_axis',(1.,2.90569849843007E-31,1.2882679901679E-15));
#279=DIRECTION('center_axis',(-1.2882679901679E-15,2.22320855043373E-16,
1.));
#280=DIRECTION('ref_axis',(1.,4.9960036108132E-16,3.2824220771998E-17));
#281=DIRECTION('center_axis',(1.2882679901679E-15,-2.22320855043373E-16,
-1.));
#282=DIRECTION('ref_axis',(1.,2.90569849843007E-31,1.2882679901679E-15));
#283=DIRECTION('center_axis',(-3.2824220771998E-17,4.50181897181756E-17,
1.));
#284=DIRECTION('ref_axis',(1.,4.9960036108132E-16,3.2824220771998E-17));
#285=DIRECTION('center_axis',(0.,4.50181897181757E-17,1.));
#286=DIRECTION('ref_axis',(1.,4.9960036108132E-16,3.2824220771998E-17));
#287=DIRECTION('',(3.2824220771998E-17,-4.50181897181756E-17,-1.));
#288=DIRECTION('center_axis',(-3.2824220771998E-17,4.50181897181756E-17,
1.));
#289=DIRECTION('ref_axis',(1.,4.9960036108132E-16,3.2824220771998E-17));
#290=DIRECTION('center_axis',(-3.28242207719978E-17,4.50181897181756E-17,
1.));
#291=DIRECTION('ref_axis',(1.,4.9960036108132E-16,3.2824220771998E-17));
#292=DIRECTION('',(3.2824220771998E-17,-4.50181897181756E-17,-1.));
#293=DIRECTION('center_axis',(0.,-4.50181897181757E-17,-1.));
#294=DIRECTION('ref_axis',(1.,4.9960036108132E-16,3.2824220771998E-17));
#295=DIRECTION('center_axis',(0.,4.50181897181757E-17,1.));
#296=DIRECTION('ref_axis',(1.,0.,0.));
#297=DIRECTION('center_axis',(0.,-4.50181897181757E-17,-1.));
#298=DIRECTION('ref_axis',(6.12323399573677E-17,1.,-4.50181897181757E-17));
#299=DIRECTION('center_axis',(0.,-4.50181897181757E-17,-1.));
#300=DIRECTION('ref_axis',(-1.,0.,0.));
#301=DIRECTION('center_axis',(0.,4.50181897181757E-17,1.));
#302=DIRECTION('ref_axis',(6.12323399573677E-17,1.,-4.50181897181757E-17));
#303=DIRECTION('center_axis',(0.,4.50181897181757E-17,1.));
#304=DIRECTION('ref_axis',(1.,0.,0.));
#305=DIRECTION('center_axis',(1.22464679914736E-16,-1.,4.50181897181757E-17));
#306=DIRECTION('ref_axis',(-1.,-1.22464679914736E-16,0.));
#307=DIRECTION('center_axis',(0.,-4.50181897181757E-17,-1.));
#308=DIRECTION('ref_axis',(6.12323399573677E-17,1.,-5.84352512013746E-17));
#309=DIRECTION('center_axis',(0.,-4.50181897181757E-17,-1.));
#310=DIRECTION('ref_axis',(6.12323399573677E-17,1.,-5.84352512013746E-17));
#311=DIRECTION('center_axis',(0.,4.50181897181757E-17,1.));
#312=DIRECTION('ref_axis',(-5.57747997382482E-31,-1.,0.));
#313=DIRECTION('',(0.,4.50181897181757E-17,1.));
#314=DIRECTION('center_axis',(0.,4.50181897181757E-17,1.));
#315=DIRECTION('ref_axis',(6.12323399573677E-17,1.,-5.84352512013746E-17));
#316=DIRECTION('center_axis',(0.,4.50181897181757E-17,1.));
#317=DIRECTION('ref_axis',(6.12323399573677E-17,1.,-5.84352512013746E-17));
#318=DIRECTION('center_axis',(0.,4.50181897181757E-17,1.));
#319=DIRECTION('ref_axis',(1.,0.,0.));
#320=DIRECTION('center_axis',(1.22464679914736E-16,-1.,4.50181897181757E-17));
#321=DIRECTION('ref_axis',(-1.,-1.22464679914736E-16,0.));
#322=DIRECTION('center_axis',(3.28242207719989E-17,-4.50181897181762E-17,
-1.));
#323=DIRECTION('ref_axis',(1.,4.9960036108132E-16,3.28242207719979E-17));
#324=DIRECTION('center_axis',(3.28242207719978E-17,-4.50181897181756E-17,
-1.));
#325=DIRECTION('ref_axis',(1.,4.9960036108132E-16,3.28242207719978E-17));
#326=DIRECTION('',(-0.707106781186547,-4.71699076053863E-16,-0.707106781186547));
#327=DIRECTION('center_axis',(-3.28242207719978E-17,4.50181897181756E-17,
1.));
#328=DIRECTION('ref_axis',(1.,4.9960036108132E-16,3.28242207719978E-17));
#329=DIRECTION('center_axis',(0.,-2.22044604925031E-16,-1.));
#330=DIRECTION('ref_axis',(1.,4.9960036108132E-16,6.00776306882679E-16));
#331=DIRECTION('center_axis',(1.2882679901679E-15,-2.22320855043373E-16,
-1.));
#332=DIRECTION('ref_axis',(1.,4.99600361081321E-16,1.2882679901679E-15));
#333=DIRECTION('',(-0.342020143325674,-4.21412451212736E-16,-0.939692620785907));
#334=DIRECTION('center_axis',(-1.2882679901679E-15,2.22320855043373E-16,
1.));
#335=DIRECTION('ref_axis',(1.,4.9960036108132E-16,3.2824220771998E-17));
#336=DIRECTION('center_axis',(-3.2824220771998E-17,4.50181897181756E-17,
1.));
#337=DIRECTION('ref_axis',(1.,4.9960036108132E-16,3.2824220771998E-17));
#338=DIRECTION('',(3.2824220771998E-17,-4.50181897181756E-17,-1.));
#339=DIRECTION('center_axis',(3.2824220771998E-17,-4.50181897181756E-17,
-1.));
#340=DIRECTION('ref_axis',(1.,4.9960036108132E-16,3.2824220771998E-17));
#341=DIRECTION('center_axis',(3.2824220771998E-17,-4.50181897181756E-17,
-1.));
#342=DIRECTION('ref_axis',(1.,4.9960036108132E-16,3.2824220771998E-17));
#343=DIRECTION('center_axis',(-1.2882679901679E-15,2.22320855043373E-16,
1.));
#344=DIRECTION('ref_axis',(1.,2.90569849843007E-31,1.2882679901679E-15));
#345=DIRECTION('center_axis',(-1.2882679901679E-15,2.22320855043373E-16,
1.));
#346=DIRECTION('ref_axis',(1.,2.90569849843007E-31,1.2882679901679E-15));
#347=DIRECTION('center_axis',(0.,-2.22044604925031E-16,-1.));
#348=DIRECTION('ref_axis',(1.,4.51689292861114E-33,-1.00295170582213E-48));
#349=DIRECTION('',(0.,-2.22044604925031E-16,-1.));
#350=DIRECTION('center_axis',(0.,2.22044604925031E-16,1.));
#351=DIRECTION('ref_axis',(-1.,-4.9960036108132E-16,2.03206303919691E-16));
#352=DIRECTION('center_axis',(4.98244459784304E-16,3.78636339543517E-16,
1.));
#353=DIRECTION('ref_axis',(-1.,-4.9960036108132E-16,2.03206303919691E-16));
#354=DIRECTION('',(0.707106781186556,4.23684443448679E-16,0.707106781186539));
#355=DIRECTION('center_axis',(-4.98244459784304E-16,-3.78636339543517E-16,
-1.));
#356=DIRECTION('ref_axis',(-1.,-5.55111512312581E-16,4.98244459784304E-16));
#357=CARTESIAN_POINT('',(0.,0.,0.));
#358=CARTESIAN_POINT('Origin',(1.3987061727561E-14,-2.01679967564517E-14,
0.51));
#359=CARTESIAN_POINT('',(-0.249999999999997,-1.38079070332302E-15,0.51));
#360=CARTESIAN_POINT('Origin',(2.80857258057468E-15,-1.22527444307401E-15,
0.51));
#361=CARTESIAN_POINT('',(-0.203499999999987,-2.01679967564517E-14,0.51));
#362=CARTESIAN_POINT('Origin',(1.3987061727561E-14,-2.01679967564517E-14,
0.51));
#363=CARTESIAN_POINT('Origin',(2.79741234551221E-15,-1.20996825856983E-15,
0.849999999999995));
#364=CARTESIAN_POINT('',(-0.249999999999997,-1.37810761921582E-15,0.5696));
#365=CARTESIAN_POINT('Origin',(2.80661625701667E-15,-1.2225913589668E-15,
0.5696));
#366=CARTESIAN_POINT('',(-0.249999999999997,-1.36548451881884E-15,0.849999999999995));
#367=CARTESIAN_POINT('Origin',(2.79741234551221E-15,-1.20996825856983E-15,
0.849999999999995));
#368=CARTESIAN_POINT('',(-0.249999999999997,-1.36233324553857E-15,0.919999999999995));
#369=CARTESIAN_POINT('Origin',(2.79511465005817E-15,-1.20681698528955E-15,
0.919999999999995));
#370=CARTESIAN_POINT('',(-0.249999999999997,-1.3130487331324E-15,0.6546));
#371=CARTESIAN_POINT('',(-0.249999999999997,-1.36548451881884E-15,0.849999999999995));
#372=CARTESIAN_POINT('Origin',(2.80382619825105E-15,-1.21876481284076E-15,
0.6546));
#373=CARTESIAN_POINT('Origin',(-7.25449194582187E-31,-0.187000000000001,
0.6546));
#374=CARTESIAN_POINT('',(-0.217,-1.24533964838226E-15,0.6546));
#375=CARTESIAN_POINT('Origin',(-6.21150319071663E-31,-1.21876481284076E-15,
0.6546));
#376=CARTESIAN_POINT('Origin',(-7.60587318417283E-31,-0.250000000000001,
0.5696));
#377=CARTESIAN_POINT('',(-0.217,-1.2491661945083E-15,0.5696));
#378=CARTESIAN_POINT('Origin',(-6.21150319071663E-31,-1.2225913589668E-15,
0.5696));
#379=CARTESIAN_POINT('Origin',(-6.21150319071663E-31,-1.22124081327526E-15,
0.5996));
#380=CARTESIAN_POINT('',(-0.187,-1.24414170841931E-15,0.5996));
#381=CARTESIAN_POINT('Origin',(-0.217,-1.24781564881676E-15,0.5996));
#382=CARTESIAN_POINT('',(-2.2900895144056E-17,0.186999999999999,0.5996));
#383=CARTESIAN_POINT('Origin',(-6.21150319071663E-31,-1.22124081327526E-15,
0.5996));
#384=CARTESIAN_POINT('Origin',(-6.21150319071663E-31,-1.22124081327526E-15,
0.5996));
#385=CARTESIAN_POINT('Origin',(-6.21150319071663E-31,-1.22067808590378E-15,
0.6121));
#386=CARTESIAN_POINT('',(-2.2900895144056E-17,0.186999999999999,0.6246));
#387=CARTESIAN_POINT('',(-2.2900895144056E-17,0.186999999999999,0.6121));
#388=CARTESIAN_POINT('',(-0.187,-1.24301625367636E-15,0.6246));
#389=CARTESIAN_POINT('Origin',(-6.21150319071663E-31,-1.2201153585323E-15,
0.6246));
#390=CARTESIAN_POINT('Origin',(-6.21150319071663E-31,-1.2201153585323E-15,
0.6246));
#391=CARTESIAN_POINT('Origin',(-6.21150319071663E-31,-1.2201153585323E-15,
0.6246));
#392=CARTESIAN_POINT('Origin',(-0.217,-1.2466901940738E-15,0.6246));
#393=CARTESIAN_POINT('Origin',(2.79462228674659E-15,-1.20614171244378E-15,
0.934999999999995));
#394=CARTESIAN_POINT('',(-0.219999999999997,-1.28843628945466E-15,0.949999999999995));
#395=CARTESIAN_POINT('Origin',(2.79412992343501E-15,-1.20546643959801E-15,
0.949999999999995));
#396=CARTESIAN_POINT('',(-0.234999999999997,-1.35232699707786E-15,0.934999999999995));
#397=CARTESIAN_POINT('Origin',(8.39223703653662E-15,-1.18776379807732E-15,
0.949999999999995));
#398=CARTESIAN_POINT('Origin',(2.79741234551221E-15,-1.32480550955359E-15,
0.332818999261253));
#399=CARTESIAN_POINT('',(-0.204299999999999,-1.31168916498351E-15,0.391889763779528));
#400=CARTESIAN_POINT('Origin',(2.79741234551221E-15,-1.31168916498351E-15,
0.391889763779528));
#401=CARTESIAN_POINT('',(-0.247299999999996,-1.33792185412367E-15,0.273748234742979));
#402=CARTESIAN_POINT('',(-0.225799999999997,-1.4652677958105E-15,0.332818999261253));
#403=CARTESIAN_POINT('Origin',(2.79741234551221E-15,-1.33792185412367E-15,
0.273748234742979));
#404=CARTESIAN_POINT('Origin',(2.79741234551221E-15,-1.20996825856983E-15,
0.849999999999995));
#405=CARTESIAN_POINT('',(-0.247299999999996,-1.38506327802578E-15,0.0614421356237326));
#406=CARTESIAN_POINT('',(-0.247299999999997,-1.36380494320815E-15,0.849999999999995));
#407=CARTESIAN_POINT('',(0.247300000000003,-1.29179762407328E-15,0.0614421356237324));
#408=CARTESIAN_POINT('Origin',(2.79741234551221E-15,-1.38506327802578E-15,
0.0614421356237326));
#409=CARTESIAN_POINT('Origin',(2.79741234551221E-15,-1.38506327802578E-15,
0.0614421356237326));
#410=CARTESIAN_POINT('Origin',(1.3987061727561E-14,-2.01942224971909E-14,
0.391889763779528));
#411=CARTESIAN_POINT('',(-0.203499999999987,-2.01942224971909E-14,0.391889763779528));
#412=CARTESIAN_POINT('Origin',(1.3987061727561E-14,-2.01942224971909E-14,
0.391889763779528));
#413=CARTESIAN_POINT('Origin',(1.3987061727561E-14,-2.01679967564517E-14,
0.51));
#414=CARTESIAN_POINT('',(-0.203499999999986,-2.01430751940891E-14,0.51));
#415=CARTESIAN_POINT('Origin',(2.79741234551221E-15,-1.39158496517429E-15,
0.0320710678118669));
#416=CARTESIAN_POINT('',(0.185857864376271,-1.3987061727561E-15,6.99353086378052E-16));
#417=CARTESIAN_POINT('Origin',(2.79741234551221E-15,-1.3987061727561E-15,
6.99353086378052E-16));
#418=CARTESIAN_POINT('',(0.217928932188137,-1.30939618888761E-15,0.0320710678118668));
#419=CARTESIAN_POINT('Origin',(0.,-4.19611851826831E-15,6.99353086378052E-16));
#420=UNCERTAINTY_MEASURE_WITH_UNIT(LENGTH_MEASURE(0.000393700787401575),
#425,'DISTANCE_ACCURACY_VALUE',
'Maximum model space distance between geometric entities at asserted c
onnectivities');
#421=UNCERTAINTY_MEASURE_WITH_UNIT(LENGTH_MEASURE(0.000393700787401575),
#425,'DISTANCE_ACCURACY_VALUE',
'Maximum model space distance between geometric entities at asserted c
onnectivities');
#422=(
GEOMETRIC_REPRESENTATION_CONTEXT(3)
GLOBAL_UNCERTAINTY_ASSIGNED_CONTEXT((#420))
GLOBAL_UNIT_ASSIGNED_CONTEXT((#425,#429,#430))
REPRESENTATION_CONTEXT('','3D')
);
#423=(
GEOMETRIC_REPRESENTATION_CONTEXT(3)
GLOBAL_UNCERTAINTY_ASSIGNED_CONTEXT((#421))
GLOBAL_UNIT_ASSIGNED_CONTEXT((#425,#429,#430))
REPRESENTATION_CONTEXT('','3D')
);
#424=DIMENSIONAL_EXPONENTS(1.,0.,0.,0.,0.,0.,0.);
#425=(
CONVERSION_BASED_UNIT('inch',#428)
LENGTH_UNIT()
NAMED_UNIT(#424)
);
#426=(
LENGTH_UNIT()
NAMED_UNIT(*)
SI_UNIT(.MILLI.,.METRE.)
);
#427=(
LENGTH_UNIT()
NAMED_UNIT(*)
SI_UNIT($,.METRE.)
);
#428=LENGTH_MEASURE_WITH_UNIT(LENGTH_MEASURE(25.4),#426);
#429=(
NAMED_UNIT(*)
PLANE_ANGLE_UNIT()
SI_UNIT($,.RADIAN.)
);
#430=(
NAMED_UNIT(*)
SI_UNIT($,.STERADIAN.)
SOLID_ANGLE_UNIT()
);
#431=SHAPE_DEFINITION_REPRESENTATION(#432,#433);
#432=PRODUCT_DEFINITION_SHAPE('',$,#435);
#433=SHAPE_REPRESENTATION('',(#238),#422);
#434=PRODUCT_DEFINITION_CONTEXT('part definition',#439,'design');
#435=PRODUCT_DEFINITION('Round Pin','Round Pin',#436,#434);
#436=PRODUCT_DEFINITION_FORMATION('',$,#441);
#437=PRODUCT_RELATED_PRODUCT_CATEGORY('Round Pin','Round Pin',(#441));
#438=APPLICATION_PROTOCOL_DEFINITION('international standard',
'automotive_design',2009,#439);
#439=APPLICATION_CONTEXT(
'Core Data for Automotive Mechanical Design Process');
#440=PRODUCT_CONTEXT('part definition',#439,'mechanical');
#441=PRODUCT('Round Pin','Round Pin',$,(#440));
#442=PRESENTATION_STYLE_ASSIGNMENT((#444));
#443=PRESENTATION_STYLE_ASSIGNMENT((#445));
#444=SURFACE_STYLE_USAGE(.BOTH.,#446);
#445=SURFACE_STYLE_USAGE(.BOTH.,#447);
#446=SURFACE_SIDE_STYLE('',(#448));
#447=SURFACE_SIDE_STYLE('',(#449));
#448=SURFACE_STYLE_FILL_AREA(#450);
#449=SURFACE_STYLE_FILL_AREA(#451);
#450=FILL_AREA_STYLE('Steel - Satin',(#452));
#451=FILL_AREA_STYLE('Steel - Satin',(#453));
#452=FILL_AREA_STYLE_COLOUR('Steel - Satin',#454);
#453=FILL_AREA_STYLE_COLOUR('Steel - Satin',#455);
#454=COLOUR_RGB('Steel - Satin',0.627450980392157,0.627450980392157,0.627450980392157);
#455=COLOUR_RGB('Steel - Satin',0.627450980392157,0.627450980392157,0.627450980392157);
ENDSEC;
END-ISO-10303-21;
