ISO-10303-21;
HEADER;
/* Generated by software containing ST-Developer
 * from STEP Tools, Inc. (www.steptools.com) 
 */

FILE_DESCRIPTION(
/* description */ (''),
/* implementation_level */ '2;1');

FILE_NAME(
/* name */ 'S2029 Round Pin.step',
/* time_stamp */ '2025-04-28T10:24:49-04:00',
/* author */ (''),
/* organization */ (''),
/* preprocessor_version */ 'ST-DEVELOPER v20.1',
/* originating_system */ 'Autodesk Translation Framework v14.4.0.0',
/* authorisation */ '');

FILE_SCHEMA (('AUTOMOTIVE_DESIGN { 1 0 10303 214 3 1 1 }'));
ENDSEC;

DATA;
#10=MECHANICAL_DESIGN_GEOMETRIC_PRESENTATION_REPRESENTATION('',(#13),#468);
#11=SHAPE_REPRESENTATION_RELATIONSHIP('SRR','None',#478,#12);
#12=ADVANCED_BREP_SHAPE_REPRESENTATION('',(#14),#467);
#13=STYLED_ITEM('',(#488),#14);
#14=MANIFOLD_SOLID_BREP('Body1 (2) (1)',#251);
#15=CONICAL_SURFACE('',#280,0.233720472440945,0.785398163397458);
#16=CONICAL_SURFACE('',#284,0.233720472440945,0.785398163397434);
#17=CONICAL_SURFACE('',#288,0.231220472440945,0.785398163397445);
#18=CONICAL_SURFACE('',#292,0.212436023622047,0.349065850398867);
#19=CONICAL_SURFACE('',#295,0.207942913385827,0.785398163397451);
#20=CONICAL_SURFACE('',#300,0.235,0.785398163397448);
#21=FACE_BOUND('',#77,.T.);
#22=FACE_BOUND('',#80,.T.);
#23=FACE_BOUND('',#87,.T.);
#24=PLANE('',#273);
#25=PLANE('',#278);
#26=PLANE('',#290);
#27=PLANE('',#302);
#28=PLANE('',#303);
#29=LINE('',#406,#40);
#30=LINE('',#422,#41);
#31=LINE('',#427,#42);
#32=LINE('',#430,#43);
#33=LINE('',#434,#44);
#34=LINE('',#439,#45);
#35=LINE('',#447,#46);
#36=LINE('',#453,#47);
#37=LINE('',#456,#48);
#38=LINE('',#458,#49);
#39=LINE('',#462,#50);
#40=VECTOR('',#318,0.183500000000001);
#41=VECTOR('',#339,0.233720472440949);
#42=VECTOR('',#346,0.236220472440945);
#43=VECTOR('',#349,0.23372047244094);
#44=VECTOR('',#354,0.236220472440945);
#45=VECTOR('',#361,0.231220472440944);
#46=VECTOR('',#370,0.212436023622047);
#47=VECTOR('',#377,0.207942913385827);
#48=VECTOR('',#382,0.191929133858257);
#49=VECTOR('',#385,0.236220472440945);
#50=VECTOR('',#390,0.235);
#51=CYLINDRICAL_SURFACE('',#270,0.183500000000001);
#52=CYLINDRICAL_SURFACE('',#282,0.236220472440945);
#53=CYLINDRICAL_SURFACE('',#286,0.236220472440945);
#54=CYLINDRICAL_SURFACE('',#298,0.191929133858257);
#55=CYLINDRICAL_SURFACE('',#299,0.232942913385827);
#56=FACE_OUTER_BOUND('',#74,.T.);
#57=FACE_OUTER_BOUND('',#75,.T.);
#58=FACE_OUTER_BOUND('',#76,.T.);
#59=FACE_OUTER_BOUND('',#78,.T.);
#60=FACE_OUTER_BOUND('',#79,.T.);
#61=FACE_OUTER_BOUND('',#81,.T.);
#62=FACE_OUTER_BOUND('',#82,.T.);
#63=FACE_OUTER_BOUND('',#83,.T.);
#64=FACE_OUTER_BOUND('',#84,.T.);
#65=FACE_OUTER_BOUND('',#85,.T.);
#66=FACE_OUTER_BOUND('',#86,.T.);
#67=FACE_OUTER_BOUND('',#88,.T.);
#68=FACE_OUTER_BOUND('',#89,.T.);
#69=FACE_OUTER_BOUND('',#90,.T.);
#70=FACE_OUTER_BOUND('',#91,.T.);
#71=FACE_OUTER_BOUND('',#92,.T.);
#72=FACE_OUTER_BOUND('',#93,.T.);
#73=FACE_OUTER_BOUND('',#94,.T.);
#74=EDGE_LOOP('',(#167,#168,#169,#170,#171));
#75=EDGE_LOOP('',(#172,#173,#174,#175,#176,#177));
#76=EDGE_LOOP('',(#178));
#77=EDGE_LOOP('',(#179));
#78=EDGE_LOOP('',(#180,#181,#182,#183,#184));
#79=EDGE_LOOP('',(#185));
#80=EDGE_LOOP('',(#186));
#81=EDGE_LOOP('',(#187,#188,#189,#190));
#82=EDGE_LOOP('',(#191,#192,#193,#194));
#83=EDGE_LOOP('',(#195,#196,#197,#198));
#84=EDGE_LOOP('',(#199,#200,#201,#202));
#85=EDGE_LOOP('',(#203,#204,#205,#206));
#86=EDGE_LOOP('',(#207));
#87=EDGE_LOOP('',(#208));
#88=EDGE_LOOP('',(#209,#210,#211,#212));
#89=EDGE_LOOP('',(#213,#214,#215,#216));
#90=EDGE_LOOP('',(#217,#218,#219,#220));
#91=EDGE_LOOP('',(#221,#222,#223,#224));
#92=EDGE_LOOP('',(#225,#226,#227,#228));
#93=EDGE_LOOP('',(#229));
#94=EDGE_LOOP('',(#230));
#95=CIRCLE('',#266,0.213500000000001);
#96=CIRCLE('',#267,0.03);
#97=CIRCLE('',#268,0.183500000000001);
#98=CIRCLE('',#269,0.183500000000001);
#99=CIRCLE('',#271,0.183500000000001);
#100=CIRCLE('',#272,0.183500000000001);
#101=CIRCLE('',#274,0.231220472440945);
#102=CIRCLE('',#276,0.03);
#103=CIRCLE('',#277,0.213500000000001);
#104=CIRCLE('',#279,0.231220472440945);
#105=CIRCLE('',#281,0.236220472440945);
#106=CIRCLE('',#283,0.236220472440945);
#107=CIRCLE('',#285,0.236220472440945);
#108=CIRCLE('',#287,0.236220472440945);
#109=CIRCLE('',#289,0.226220472440945);
#110=CIRCLE('',#291,0.191929133858257);
#111=CIRCLE('',#293,0.191929133858256);
#112=CIRCLE('',#294,0.232942913385827);
#113=CIRCLE('',#296,0.232942913385827);
#114=CIRCLE('',#297,0.182942913385827);
#115=CIRCLE('',#301,0.22);
#116=VERTEX_POINT('',#397);
#117=VERTEX_POINT('',#399);
#118=VERTEX_POINT('',#401);
#119=VERTEX_POINT('',#405);
#120=VERTEX_POINT('',#407);
#121=VERTEX_POINT('',#411);
#122=VERTEX_POINT('',#414);
#123=VERTEX_POINT('',#418);
#124=VERTEX_POINT('',#421);
#125=VERTEX_POINT('',#425);
#126=VERTEX_POINT('',#429);
#127=VERTEX_POINT('',#433);
#128=VERTEX_POINT('',#437);
#129=VERTEX_POINT('',#441);
#130=VERTEX_POINT('',#444);
#131=VERTEX_POINT('',#446);
#132=VERTEX_POINT('',#450);
#133=VERTEX_POINT('',#452);
#134=VERTEX_POINT('',#460);
#135=EDGE_CURVE('',#116,#116,#95,.T.);
#136=EDGE_CURVE('',#116,#117,#96,.T.);
#137=EDGE_CURVE('',#117,#118,#97,.T.);
#138=EDGE_CURVE('',#118,#117,#98,.T.);
#139=EDGE_CURVE('',#118,#119,#29,.T.);
#140=EDGE_CURVE('',#120,#119,#99,.T.);
#141=EDGE_CURVE('',#119,#120,#100,.T.);
#142=EDGE_CURVE('',#121,#121,#101,.T.);
#143=EDGE_CURVE('',#120,#122,#102,.T.);
#144=EDGE_CURVE('',#122,#122,#103,.T.);
#145=EDGE_CURVE('',#123,#123,#104,.T.);
#146=EDGE_CURVE('',#121,#124,#30,.T.);
#147=EDGE_CURVE('',#124,#124,#105,.T.);
#148=EDGE_CURVE('',#125,#125,#106,.T.);
#149=EDGE_CURVE('',#125,#124,#31,.T.);
#150=EDGE_CURVE('',#123,#126,#32,.T.);
#151=EDGE_CURVE('',#126,#126,#107,.T.);
#152=EDGE_CURVE('',#126,#127,#33,.T.);
#153=EDGE_CURVE('',#127,#127,#108,.T.);
#154=EDGE_CURVE('',#128,#128,#109,.T.);
#155=EDGE_CURVE('',#128,#127,#34,.T.);
#156=EDGE_CURVE('',#129,#129,#110,.T.);
#157=EDGE_CURVE('',#130,#130,#111,.T.);
#158=EDGE_CURVE('',#130,#131,#35,.T.);
#159=EDGE_CURVE('',#131,#131,#112,.T.);
#160=EDGE_CURVE('',#132,#132,#113,.T.);
#161=EDGE_CURVE('',#132,#133,#36,.T.);
#162=EDGE_CURVE('',#133,#133,#114,.T.);
#163=EDGE_CURVE('',#129,#130,#37,.T.);
#164=EDGE_CURVE('',#131,#132,#38,.T.);
#165=EDGE_CURVE('',#134,#134,#115,.T.);
#166=EDGE_CURVE('',#134,#125,#39,.T.);
#167=ORIENTED_EDGE('',*,*,#135,.T.);
#168=ORIENTED_EDGE('',*,*,#136,.T.);
#169=ORIENTED_EDGE('',*,*,#137,.T.);
#170=ORIENTED_EDGE('',*,*,#138,.T.);
#171=ORIENTED_EDGE('',*,*,#136,.F.);
#172=ORIENTED_EDGE('',*,*,#137,.F.);
#173=ORIENTED_EDGE('',*,*,#138,.F.);
#174=ORIENTED_EDGE('',*,*,#139,.T.);
#175=ORIENTED_EDGE('',*,*,#140,.F.);
#176=ORIENTED_EDGE('',*,*,#141,.F.);
#177=ORIENTED_EDGE('',*,*,#139,.F.);
#178=ORIENTED_EDGE('',*,*,#142,.F.);
#179=ORIENTED_EDGE('',*,*,#135,.F.);
#180=ORIENTED_EDGE('',*,*,#141,.T.);
#181=ORIENTED_EDGE('',*,*,#143,.T.);
#182=ORIENTED_EDGE('',*,*,#144,.T.);
#183=ORIENTED_EDGE('',*,*,#143,.F.);
#184=ORIENTED_EDGE('',*,*,#140,.T.);
#185=ORIENTED_EDGE('',*,*,#145,.F.);
#186=ORIENTED_EDGE('',*,*,#144,.F.);
#187=ORIENTED_EDGE('',*,*,#142,.T.);
#188=ORIENTED_EDGE('',*,*,#146,.T.);
#189=ORIENTED_EDGE('',*,*,#147,.T.);
#190=ORIENTED_EDGE('',*,*,#146,.F.);
#191=ORIENTED_EDGE('',*,*,#148,.F.);
#192=ORIENTED_EDGE('',*,*,#149,.T.);
#193=ORIENTED_EDGE('',*,*,#147,.F.);
#194=ORIENTED_EDGE('',*,*,#149,.F.);
#195=ORIENTED_EDGE('',*,*,#145,.T.);
#196=ORIENTED_EDGE('',*,*,#150,.T.);
#197=ORIENTED_EDGE('',*,*,#151,.T.);
#198=ORIENTED_EDGE('',*,*,#150,.F.);
#199=ORIENTED_EDGE('',*,*,#151,.F.);
#200=ORIENTED_EDGE('',*,*,#152,.T.);
#201=ORIENTED_EDGE('',*,*,#153,.F.);
#202=ORIENTED_EDGE('',*,*,#152,.F.);
#203=ORIENTED_EDGE('',*,*,#154,.T.);
#204=ORIENTED_EDGE('',*,*,#155,.T.);
#205=ORIENTED_EDGE('',*,*,#153,.T.);
#206=ORIENTED_EDGE('',*,*,#155,.F.);
#207=ORIENTED_EDGE('',*,*,#154,.F.);
#208=ORIENTED_EDGE('',*,*,#156,.F.);
#209=ORIENTED_EDGE('',*,*,#157,.T.);
#210=ORIENTED_EDGE('',*,*,#158,.T.);
#211=ORIENTED_EDGE('',*,*,#159,.F.);
#212=ORIENTED_EDGE('',*,*,#158,.F.);
#213=ORIENTED_EDGE('',*,*,#160,.F.);
#214=ORIENTED_EDGE('',*,*,#161,.T.);
#215=ORIENTED_EDGE('',*,*,#162,.F.);
#216=ORIENTED_EDGE('',*,*,#161,.F.);
#217=ORIENTED_EDGE('',*,*,#156,.T.);
#218=ORIENTED_EDGE('',*,*,#163,.T.);
#219=ORIENTED_EDGE('',*,*,#157,.F.);
#220=ORIENTED_EDGE('',*,*,#163,.F.);
#221=ORIENTED_EDGE('',*,*,#159,.T.);
#222=ORIENTED_EDGE('',*,*,#164,.T.);
#223=ORIENTED_EDGE('',*,*,#160,.T.);
#224=ORIENTED_EDGE('',*,*,#164,.F.);
#225=ORIENTED_EDGE('',*,*,#165,.T.);
#226=ORIENTED_EDGE('',*,*,#166,.T.);
#227=ORIENTED_EDGE('',*,*,#148,.T.);
#228=ORIENTED_EDGE('',*,*,#166,.F.);
#229=ORIENTED_EDGE('',*,*,#165,.F.);
#230=ORIENTED_EDGE('',*,*,#162,.T.);
#231=TOROIDAL_SURFACE('',#265,0.213500000000001,0.03);
#232=TOROIDAL_SURFACE('',#275,0.213500000000001,0.03);
#233=ADVANCED_FACE('',(#56),#231,.F.);
#234=ADVANCED_FACE('',(#57),#51,.T.);
#235=ADVANCED_FACE('',(#58,#21),#24,.F.);
#236=ADVANCED_FACE('',(#59),#232,.F.);
#237=ADVANCED_FACE('',(#60,#22),#25,.F.);
#238=ADVANCED_FACE('',(#61),#15,.T.);
#239=ADVANCED_FACE('',(#62),#52,.T.);
#240=ADVANCED_FACE('',(#63),#16,.T.);
#241=ADVANCED_FACE('',(#64),#53,.T.);
#242=ADVANCED_FACE('',(#65),#17,.T.);
#243=ADVANCED_FACE('',(#66,#23),#26,.F.);
#244=ADVANCED_FACE('',(#67),#18,.T.);
#245=ADVANCED_FACE('',(#68),#19,.T.);
#246=ADVANCED_FACE('',(#69),#54,.T.);
#247=ADVANCED_FACE('',(#70),#55,.T.);
#248=ADVANCED_FACE('',(#71),#20,.T.);
#249=ADVANCED_FACE('',(#72),#27,.T.);
#250=ADVANCED_FACE('',(#73),#28,.T.);
#251=CLOSED_SHELL('',(#233,#234,#235,#236,#237,#238,#239,#240,#241,#242,
#243,#244,#245,#246,#247,#248,#249,#250));
#252=DERIVED_UNIT_ELEMENT(#254,1.);
#253=DERIVED_UNIT_ELEMENT(#472,-3.);
#254=(
MASS_UNIT()
NAMED_UNIT(*)
SI_UNIT(.KILO.,.GRAM.)
);
#255=DERIVED_UNIT((#252,#253));
#256=MEASURE_REPRESENTATION_ITEM('density measure',
POSITIVE_RATIO_MEASURE(7850.),#255);
#257=PROPERTY_DEFINITION_REPRESENTATION(#262,#259);
#258=PROPERTY_DEFINITION_REPRESENTATION(#263,#260);
#259=REPRESENTATION('material name',(#261),#467);
#260=REPRESENTATION('density',(#256),#467);
#261=DESCRIPTIVE_REPRESENTATION_ITEM('Steel','Steel');
#262=PROPERTY_DEFINITION('material property','material name',#480);
#263=PROPERTY_DEFINITION('material property','density of part',#480);
#264=AXIS2_PLACEMENT_3D('',#395,#304,#305);
#265=AXIS2_PLACEMENT_3D('',#396,#306,#307);
#266=AXIS2_PLACEMENT_3D('',#398,#308,#309);
#267=AXIS2_PLACEMENT_3D('',#400,#310,#311);
#268=AXIS2_PLACEMENT_3D('',#402,#312,#313);
#269=AXIS2_PLACEMENT_3D('',#403,#314,#315);
#270=AXIS2_PLACEMENT_3D('',#404,#316,#317);
#271=AXIS2_PLACEMENT_3D('',#408,#319,#320);
#272=AXIS2_PLACEMENT_3D('',#409,#321,#322);
#273=AXIS2_PLACEMENT_3D('',#410,#323,#324);
#274=AXIS2_PLACEMENT_3D('',#412,#325,#326);
#275=AXIS2_PLACEMENT_3D('',#413,#327,#328);
#276=AXIS2_PLACEMENT_3D('',#415,#329,#330);
#277=AXIS2_PLACEMENT_3D('',#416,#331,#332);
#278=AXIS2_PLACEMENT_3D('',#417,#333,#334);
#279=AXIS2_PLACEMENT_3D('',#419,#335,#336);
#280=AXIS2_PLACEMENT_3D('',#420,#337,#338);
#281=AXIS2_PLACEMENT_3D('',#423,#340,#341);
#282=AXIS2_PLACEMENT_3D('',#424,#342,#343);
#283=AXIS2_PLACEMENT_3D('',#426,#344,#345);
#284=AXIS2_PLACEMENT_3D('',#428,#347,#348);
#285=AXIS2_PLACEMENT_3D('',#431,#350,#351);
#286=AXIS2_PLACEMENT_3D('',#432,#352,#353);
#287=AXIS2_PLACEMENT_3D('',#435,#355,#356);
#288=AXIS2_PLACEMENT_3D('',#436,#357,#358);
#289=AXIS2_PLACEMENT_3D('',#438,#359,#360);
#290=AXIS2_PLACEMENT_3D('',#440,#362,#363);
#291=AXIS2_PLACEMENT_3D('',#442,#364,#365);
#292=AXIS2_PLACEMENT_3D('',#443,#366,#367);
#293=AXIS2_PLACEMENT_3D('',#445,#368,#369);
#294=AXIS2_PLACEMENT_3D('',#448,#371,#372);
#295=AXIS2_PLACEMENT_3D('',#449,#373,#374);
#296=AXIS2_PLACEMENT_3D('',#451,#375,#376);
#297=AXIS2_PLACEMENT_3D('',#454,#378,#379);
#298=AXIS2_PLACEMENT_3D('',#455,#380,#381);
#299=AXIS2_PLACEMENT_3D('',#457,#383,#384);
#300=AXIS2_PLACEMENT_3D('',#459,#386,#387);
#301=AXIS2_PLACEMENT_3D('',#461,#388,#389);
#302=AXIS2_PLACEMENT_3D('',#463,#391,#392);
#303=AXIS2_PLACEMENT_3D('',#464,#393,#394);
#304=DIRECTION('axis',(0.,0.,1.));
#305=DIRECTION('refdir',(1.,0.,0.));
#306=DIRECTION('center_axis',(0.,-4.50181897181757E-17,-1.));
#307=DIRECTION('ref_axis',(-1.,0.,0.));
#308=DIRECTION('center_axis',(0.,-4.50181897181757E-17,-1.));
#309=DIRECTION('ref_axis',(6.94461509263334E-15,-1.,4.50181897181757E-17));
#310=DIRECTION('center_axis',(-1.22464679914735E-16,-1.,4.50181897181757E-17));
#311=DIRECTION('ref_axis',(1.,-1.22464679914735E-16,0.));
#312=DIRECTION('center_axis',(0.,4.50181897181757E-17,1.));
#313=DIRECTION('ref_axis',(6.94461509263334E-15,-1.,5.95498200253786E-17));
#314=DIRECTION('center_axis',(0.,4.50181897181757E-17,1.));
#315=DIRECTION('ref_axis',(6.94461509263334E-15,-1.,5.95498200253786E-17));
#316=DIRECTION('center_axis',(2.94559097803292E-31,-4.50181897181759E-17,
-1.));
#317=DIRECTION('ref_axis',(-6.5350722348148E-15,1.,0.));
#318=DIRECTION('',(2.94559097803292E-31,-4.50181897181759E-17,-1.));
#319=DIRECTION('center_axis',(0.,-4.50181897181757E-17,-1.));
#320=DIRECTION('ref_axis',(6.94461509263334E-15,-1.,5.95498200253786E-17));
#321=DIRECTION('center_axis',(0.,-4.50181897181757E-17,-1.));
#322=DIRECTION('ref_axis',(6.94461509263334E-15,-1.,5.95498200253786E-17));
#323=DIRECTION('center_axis',(0.,4.50181897181757E-17,1.));
#324=DIRECTION('ref_axis',(1.,0.,0.));
#325=DIRECTION('center_axis',(0.,4.50181897181757E-17,1.));
#326=DIRECTION('ref_axis',(1.,-1.79937986309819E-15,0.));
#327=DIRECTION('center_axis',(0.,-4.50181897181757E-17,-1.));
#328=DIRECTION('ref_axis',(-1.,0.,0.));
#329=DIRECTION('center_axis',(-1.22464679914735E-16,-1.,4.50181897181757E-17));
#330=DIRECTION('ref_axis',(1.,-1.22464679914735E-16,0.));
#331=DIRECTION('center_axis',(0.,4.50181897181757E-17,1.));
#332=DIRECTION('ref_axis',(6.94461509263334E-15,-1.,4.50181897181757E-17));
#333=DIRECTION('center_axis',(0.,-4.50181897181757E-17,-1.));
#334=DIRECTION('ref_axis',(-1.,0.,0.));
#335=DIRECTION('center_axis',(0.,-4.50181897181757E-17,-1.));
#336=DIRECTION('ref_axis',(1.,-1.79937986309819E-15,0.));
#337=DIRECTION('center_axis',(0.,4.50181897181808E-17,1.));
#338=DIRECTION('ref_axis',(1.,-1.79937986309819E-15,4.01610081532232E-16));
#339=DIRECTION('',(-0.707106781186542,1.39078197597726E-15,0.707106781186554));
#340=DIRECTION('center_axis',(0.,-4.50181897181757E-17,-1.));
#341=DIRECTION('ref_axis',(1.,-1.79937986309819E-15,7.94719416338699E-16));
#342=DIRECTION('center_axis',(7.94719416338699E-16,-2.81766817127716E-16,
-1.));
#343=DIRECTION('ref_axis',(1.,-1.79937986309819E-15,7.94719416338699E-16));
#344=DIRECTION('center_axis',(-7.94719416338699E-16,2.81766817127716E-16,
1.));
#345=DIRECTION('ref_axis',(1.,-1.79937986309819E-15,7.94719416338699E-16));
#346=DIRECTION('',(7.94719416338699E-16,-2.81766817127716E-16,-1.));
#347=DIRECTION('center_axis',(0.,-4.50181897181816E-17,-1.));
#348=DIRECTION('ref_axis',(1.,-1.79937986309819E-15,4.01610081532232E-16));
#349=DIRECTION('',(-0.70710678118655,1.15392543027724E-15,-0.707106781186545));
#350=DIRECTION('center_axis',(0.,4.50181897181757E-17,1.));
#351=DIRECTION('ref_axis',(1.,-1.79937986309819E-15,7.94719416338699E-16));
#352=DIRECTION('center_axis',(7.94719416338699E-16,-2.81766817127716E-16,
-1.));
#353=DIRECTION('ref_axis',(1.,-1.79937986309819E-15,7.94719416338699E-16));
#354=DIRECTION('',(7.94719416338699E-16,-2.81766817127716E-16,-1.));
#355=DIRECTION('center_axis',(1.2882679901679E-15,-2.22320855043373E-16,
-1.));
#356=DIRECTION('ref_axis',(1.,-1.79937986309819E-15,7.94719416338699E-16));
#357=DIRECTION('center_axis',(-1.2882679901679E-15,2.22320855043367E-16,
1.));
#358=DIRECTION('ref_axis',(1.,-1.79937986309819E-15,1.03615736161561E-15));
#359=DIRECTION('center_axis',(-1.2882679901679E-15,2.22320855043373E-16,
1.));
#360=DIRECTION('ref_axis',(1.,-1.79937986309819E-15,1.2882679901679E-15));
#361=DIRECTION('',(-0.70710678118655,1.51615389295116E-15,0.707106781186545));
#362=DIRECTION('center_axis',(-1.2882679901679E-15,2.22320855043373E-16,
1.));
#363=DIRECTION('ref_axis',(1.,2.90569849843007E-31,1.2882679901679E-15));
#364=DIRECTION('center_axis',(1.11301556103017E-30,3.96510478332242E-16,
-1.));
#365=DIRECTION('ref_axis',(1.,-4.41322332495302E-46,1.11301556103017E-30));
#366=DIRECTION('center_axis',(7.947194163387E-16,3.9651047833224E-16,-1.));
#367=DIRECTION('ref_axis',(1.,-1.59272206202369E-16,8.33582622381495E-16));
#368=DIRECTION('center_axis',(1.11301556103017E-30,3.96510478332242E-16,
-1.));
#369=DIRECTION('ref_axis',(1.,-4.41322332495302E-46,1.11301556103017E-30));
#370=DIRECTION('',(-0.342020143325669,4.68957660722997E-16,-0.939692620785908));
#371=DIRECTION('center_axis',(7.94719416338699E-16,-2.81766817127716E-16,
-1.));
#372=DIRECTION('ref_axis',(1.,-1.79937986309819E-15,7.94719416338699E-16));
#373=DIRECTION('center_axis',(-7.947194163387E-16,-3.9651047833224E-16,
1.));
#374=DIRECTION('ref_axis',(1.,-1.36252235174248E-15,7.94541026728719E-16));
#375=DIRECTION('center_axis',(-7.94719416338699E-16,2.81766817127716E-16,
1.));
#376=DIRECTION('ref_axis',(1.,-1.79937986309819E-15,7.94719416338699E-16));
#377=DIRECTION('',(0.70710678118655,-7.69669152018653E-16,-0.707106781186545));
#378=DIRECTION('center_axis',(-4.98244459784304E-16,-3.78636339543517E-16,
-1.));
#379=DIRECTION('ref_axis',(1.,-1.36252235174248E-15,7.94541026728719E-16));
#380=DIRECTION('center_axis',(1.11301556103017E-30,3.96510478332242E-16,
-1.));
#381=DIRECTION('ref_axis',(1.,-1.79937986309819E-15,0.));
#382=DIRECTION('',(1.11301556103017E-30,3.96510478332242E-16,-1.));
#383=DIRECTION('center_axis',(7.94719416338699E-16,-2.81766817127716E-16,
-1.));
#384=DIRECTION('ref_axis',(1.,-1.79937986309819E-15,7.94719416338699E-16));
#385=DIRECTION('',(7.94719416338699E-16,-2.81766817127716E-16,-1.));
#386=DIRECTION('center_axis',(3.28242207719989E-17,-4.50181897181762E-17,
-1.));
#387=DIRECTION('ref_axis',(1.,4.9960036108132E-16,3.28242207719979E-17));
#388=DIRECTION('center_axis',(3.28242207719978E-17,-4.50181897181756E-17,
-1.));
#389=DIRECTION('ref_axis',(1.,4.9960036108132E-16,3.28242207719978E-17));
#390=DIRECTION('',(-0.707106781186547,-4.71699076053863E-16,-0.707106781186547));
#391=DIRECTION('center_axis',(-3.28242207719978E-17,4.50181897181756E-17,
1.));
#392=DIRECTION('ref_axis',(1.,4.9960036108132E-16,3.28242207719978E-17));
#393=DIRECTION('center_axis',(-4.98244459784304E-16,-3.78636339543517E-16,
-1.));
#394=DIRECTION('ref_axis',(-1.,-5.55111512312581E-16,4.98244459784304E-16));
#395=CARTESIAN_POINT('',(0.,0.,0.));
#396=CARTESIAN_POINT('Origin',(1.21211166441081E-15,-1.2201153585323E-15,
0.6246));
#397=CARTESIAN_POINT('',(0.213500000000002,-1.24491102200255E-15,0.6546));
#398=CARTESIAN_POINT('Origin',(1.21211166441081E-15,-1.21876481284075E-15,
0.6546));
#399=CARTESIAN_POINT('',(0.183500000000002,-1.24258762729665E-15,0.6246));
#400=CARTESIAN_POINT('Origin',(0.213500000000002,-1.24626156769409E-15,
0.6246));
#401=CARTESIAN_POINT('',(2.38882515073498E-15,-0.183500000000002,0.6246));
#402=CARTESIAN_POINT('Origin',(1.21211166441081E-15,-1.2201153585323E-15,
0.6246));
#403=CARTESIAN_POINT('Origin',(1.21211166441081E-15,-1.2201153585323E-15,
0.6246));
#404=CARTESIAN_POINT('Origin',(1.21211166441081E-15,-1.22067808590377E-15,
0.6121));
#405=CARTESIAN_POINT('',(2.38882515073498E-15,-0.183500000000002,0.5996));
#406=CARTESIAN_POINT('',(2.38882515073498E-15,-0.183500000000002,0.6121));
#407=CARTESIAN_POINT('',(0.183500000000002,-1.2437130820396E-15,0.5996));
#408=CARTESIAN_POINT('Origin',(1.21211166441081E-15,-1.22124081327525E-15,
0.5996));
#409=CARTESIAN_POINT('Origin',(1.21211166441081E-15,-1.22124081327525E-15,
0.5996));
#410=CARTESIAN_POINT('Origin',(-7.25449194582187E-31,-0.187000000000001,
0.6546));
#411=CARTESIAN_POINT('',(-0.231220472440943,-6.74868297302353E-16,0.6546));
#412=CARTESIAN_POINT('Origin',(2.29143334346259E-15,-1.06260541820143E-15,
0.6546));
#413=CARTESIAN_POINT('Origin',(1.21211166441081E-15,-1.22124081327525E-15,
0.5996));
#414=CARTESIAN_POINT('',(0.213500000000002,-1.24873756812859E-15,0.5696));
#415=CARTESIAN_POINT('Origin',(0.213500000000002,-1.24738702243705E-15,
0.5996));
#416=CARTESIAN_POINT('Origin',(1.21211166441081E-15,-1.2225913589668E-15,
0.5696));
#417=CARTESIAN_POINT('Origin',(-7.60587318417283E-31,-0.250000000000001,
0.5696));
#418=CARTESIAN_POINT('',(-0.231220472440943,-6.44553280737876E-16,0.5696));
#419=CARTESIAN_POINT('Origin',(2.36693168801476E-15,-1.08892308393138E-15,
0.5696));
#420=CARTESIAN_POINT('Origin',(2.29143334346259E-15,-1.06249287272713E-15,
0.6571));
#421=CARTESIAN_POINT('',(-0.236220472440943,-6.0840130134427E-16,0.6596));
#422=CARTESIAN_POINT('',(-0.233720472440943,-6.13318458176097E-16,0.6571));
#423=CARTESIAN_POINT('Origin',(2.29143334346259E-15,-1.06238032725283E-15,
0.6596));
#424=CARTESIAN_POINT('Origin',(2.06064682495783E-15,-9.80555243558947E-16,
0.949999999999996));
#425=CARTESIAN_POINT('',(-0.236220472440943,-5.89003937635951E-16,0.93377952755905));
#426=CARTESIAN_POINT('Origin',(2.07353754934884E-15,-9.8512563445094E-16,
0.93377952755905));
#427=CARTESIAN_POINT('',(-0.236220472440943,-5.26576217650382E-16,0.949999999999996));
#428=CARTESIAN_POINT('Origin',(2.36693168801476E-15,-1.08903562940567E-15,
0.5671));
#429=CARTESIAN_POINT('',(-0.236220472440943,-6.93026478064978E-16,0.5646));
#430=CARTESIAN_POINT('',(-0.233720472440943,-6.97106220548641E-16,0.5671));
#431=CARTESIAN_POINT('Origin',(2.36693168801476E-15,-1.08914817487997E-15,
0.5646));
#432=CARTESIAN_POINT('Origin',(2.06064682495783E-15,-9.80555243558947E-16,
0.949999999999996));
#433=CARTESIAN_POINT('',(-0.236220472440942,-6.47735949015299E-16,0.52));
#434=CARTESIAN_POINT('',(-0.236220472440943,-5.26576217650382E-16,0.949999999999996));
#435=CARTESIAN_POINT('Origin',(2.40237617398347E-15,-1.10171497492386E-15,
0.52));
#436=CARTESIAN_POINT('Origin',(2.40881751393431E-15,-1.10282657919908E-15,
0.515));
#437=CARTESIAN_POINT('',(-0.226220472440943,-7.24585638491143E-16,0.51));
#438=CARTESIAN_POINT('Origin',(2.41525885388515E-15,-1.1039381834743E-15,
0.51));
#439=CARTESIAN_POINT('',(-0.231220472440943,-6.5845677600558E-16,0.515));
#440=CARTESIAN_POINT('Origin',(1.3987061727561E-14,-2.01679967564517E-14,
0.51));
#441=CARTESIAN_POINT('',(-0.191929133858243,-1.31948769395214E-15,0.51));
#442=CARTESIAN_POINT('Origin',(1.39870617275611E-14,-1.68834565250283E-15,
0.51));
#443=CARTESIAN_POINT('Origin',(2.52195265934383E-15,-1.7344131543648E-15,
0.369536222593804));
#444=CARTESIAN_POINT('',(-0.191929133858263,-1.70267991707859E-15,0.42587843916304));
#445=CARTESIAN_POINT('Origin',(1.39870617275611E-14,-1.65499057217731E-15,
0.425878439163033));
#446=CARTESIAN_POINT('',(-0.232942913385824,-1.64644426406227E-15,0.313194006024575));
#447=CARTESIAN_POINT('',(-0.212436023622045,-1.67456209057043E-15,0.369536222593804));
#448=CARTESIAN_POINT('Origin',(2.56672891281096E-15,-1.15998604160925E-15,
0.313194006024575));
#449=CARTESIAN_POINT('Origin',(2.79576228507112E-15,-1.59780093194135E-15,
0.0250000000000004));
#450=CARTESIAN_POINT('',(-0.232942913385824,-1.26179648840526E-15,0.0500000000000005));
#451=CARTESIAN_POINT('Origin',(2.77589429966266E-15,-1.23414537897389E-15,
0.0500000000000006));
#452=CARTESIAN_POINT('',(-0.182942913385824,-1.3162203160715E-15,4.97196334846896E-16));
#453=CARTESIAN_POINT('',(-0.207942913385824,-1.28900840223838E-15,0.0250000000000003));
#454=CARTESIAN_POINT('Origin',(2.81563027047959E-15,-1.58788816998305E-15,
6.99353086378051E-16));
#455=CARTESIAN_POINT('Origin',(1.39870617275611E-14,-1.67166811234007E-15,
0.467939219581517));
#456=CARTESIAN_POINT('',(-0.191929133858243,-1.30281015378938E-15,0.467939219581517));
#457=CARTESIAN_POINT('Origin',(2.06064682495783E-15,-9.80555243558947E-16,
0.949999999999996));
#458=CARTESIAN_POINT('',(-0.232942913385825,-5.32875176634863E-16,0.949999999999996));
#459=CARTESIAN_POINT('Origin',(2.79462228674659E-15,-1.20614171244378E-15,
0.934999999999995));
#460=CARTESIAN_POINT('',(-0.219999999999997,-1.28843628945466E-15,0.949999999999995));
#461=CARTESIAN_POINT('Origin',(2.79412992343501E-15,-1.20546643959801E-15,
0.949999999999995));
#462=CARTESIAN_POINT('',(-0.234999999999997,-1.35232699707786E-15,0.934999999999995));
#463=CARTESIAN_POINT('Origin',(8.39223703653662E-15,-1.18776379807732E-15,
0.949999999999995));
#464=CARTESIAN_POINT('Origin',(0.,-4.19611851826831E-15,6.99353086378052E-16));
#465=UNCERTAINTY_MEASURE_WITH_UNIT(LENGTH_MEASURE(0.000393700787401575),
#470,'DISTANCE_ACCURACY_VALUE',
'Maximum model space distance between geometric entities at asserted c
onnectivities');
#466=UNCERTAINTY_MEASURE_WITH_UNIT(LENGTH_MEASURE(0.000393700787401575),
#470,'DISTANCE_ACCURACY_VALUE',
'Maximum model space distance between geometric entities at asserted c
onnectivities');
#467=(
GEOMETRIC_REPRESENTATION_CONTEXT(3)
GLOBAL_UNCERTAINTY_ASSIGNED_CONTEXT((#465))
GLOBAL_UNIT_ASSIGNED_CONTEXT((#470,#474,#475))
REPRESENTATION_CONTEXT('','3D')
);
#468=(
GEOMETRIC_REPRESENTATION_CONTEXT(3)
GLOBAL_UNCERTAINTY_ASSIGNED_CONTEXT((#466))
GLOBAL_UNIT_ASSIGNED_CONTEXT((#470,#474,#475))
REPRESENTATION_CONTEXT('','3D')
);
#469=DIMENSIONAL_EXPONENTS(1.,0.,0.,0.,0.,0.,0.);
#470=(
CONVERSION_BASED_UNIT('inch',#473)
LENGTH_UNIT()
NAMED_UNIT(#469)
);
#471=(
LENGTH_UNIT()
NAMED_UNIT(*)
SI_UNIT(.MILLI.,.METRE.)
);
#472=(
LENGTH_UNIT()
NAMED_UNIT(*)
SI_UNIT($,.METRE.)
);
#473=LENGTH_MEASURE_WITH_UNIT(LENGTH_MEASURE(25.4),#471);
#474=(
NAMED_UNIT(*)
PLANE_ANGLE_UNIT()
SI_UNIT($,.RADIAN.)
);
#475=(
NAMED_UNIT(*)
SI_UNIT($,.STERADIAN.)
SOLID_ANGLE_UNIT()
);
#476=SHAPE_DEFINITION_REPRESENTATION(#477,#478);
#477=PRODUCT_DEFINITION_SHAPE('',$,#480);
#478=SHAPE_REPRESENTATION('',(#264),#467);
#479=PRODUCT_DEFINITION_CONTEXT('part definition',#484,'design');
#480=PRODUCT_DEFINITION('Round Pin','Round Pin',#481,#479);
#481=PRODUCT_DEFINITION_FORMATION('',$,#486);
#482=PRODUCT_RELATED_PRODUCT_CATEGORY('Round Pin','Round Pin',(#486));
#483=APPLICATION_PROTOCOL_DEFINITION('international standard',
'automotive_design',2009,#484);
#484=APPLICATION_CONTEXT(
'Core Data for Automotive Mechanical Design Process');
#485=PRODUCT_CONTEXT('part definition',#484,'mechanical');
#486=PRODUCT('Round Pin','Round Pin',$,(#485));
#487=PRESENTATION_STYLE_ASSIGNMENT((#489));
#488=PRESENTATION_STYLE_ASSIGNMENT((#490));
#489=SURFACE_STYLE_USAGE(.BOTH.,#491);
#490=SURFACE_STYLE_USAGE(.BOTH.,#492);
#491=SURFACE_SIDE_STYLE('',(#493));
#492=SURFACE_SIDE_STYLE('',(#494));
#493=SURFACE_STYLE_FILL_AREA(#495);
#494=SURFACE_STYLE_FILL_AREA(#496);
#495=FILL_AREA_STYLE('Steel - Satin',(#497));
#496=FILL_AREA_STYLE('Steel - Satin',(#498));
#497=FILL_AREA_STYLE_COLOUR('Steel - Satin',#499);
#498=FILL_AREA_STYLE_COLOUR('Steel - Satin',#500);
#499=COLOUR_RGB('Steel - Satin',0.627450980392157,0.627450980392157,0.627450980392157);
#500=COLOUR_RGB('Steel - Satin',0.627450980392157,0.627450980392157,0.627450980392157);
ENDSEC;
END-ISO-10303-21;
